ISO-10303-21;
HEADER;
FILE_DESCRIPTION (( 'STEP AP203' ),
    '1' );
FILE_NAME ('Q-OZHWP-R2-10-795-M.STEP',
    '2020-12-22T09:12:28',
    ( '' ),
    ( '' ),
    'SwSTEP 2.0',
    'SolidWorks 2020',
    '' );
FILE_SCHEMA (( 'CONFIG_CONTROL_DESIGN' ));
ENDSEC;

DATA;
#1 = CYLINDRICAL_SURFACE ( 'NONE', #222, 12.69999999999999929 ) ;
#2 = AXIS2_PLACEMENT_3D ( 'NONE', #272, #226, #52 ) ;
#3 = EDGE_CURVE ( 'NONE', #115, #328, #323, .T. ) ;
#4 = DIRECTION ( 'NONE',  ( 0.000000000000000000, 0.000000000000000000, 1.000000000000000000 ) ) ;
#5 = CIRCLE ( 'NONE', #130, 12.69999999999999929 ) ;
#6 = ORIENTED_EDGE ( 'NONE', *, *, #104, .F. ) ;
#7 = ADVANCED_FACE ( 'NONE', ( #178, #122 ), #18, .F. ) ;
#8 = EDGE_LOOP ( 'NONE', ( #41, #162, #68, #325 ) ) ;
#9 = AXIS2_PLACEMENT_3D ( 'NONE', #78, #273, #297 ) ;
#10 = CARTESIAN_POINT ( 'NONE',  ( 1.250000000000000444, 0.000000000000000000, 0.000000000000000000 ) ) ;
#11 = ORIENTED_EDGE ( 'NONE', *, *, #123, .F. ) ;
#12 = DIRECTION ( 'NONE',  ( 0.000000000000000000, 0.000000000000000000, 1.000000000000000000 ) ) ;
#13 = ORIENTED_EDGE ( 'NONE', *, *, #104, .T. ) ;
#14 = APPROVAL_DATE_TIME ( #21, #87 ) ;
#15 = VERTEX_POINT ( 'NONE', #223 ) ;
#16 = DATE_AND_TIME ( #227, #76 ) ;
#17 = CC_DESIGN_APPROVAL ( #87, ( #308 ) ) ;
#18 = PLANE ( 'NONE',  #89 ) ;
#19 = APPROVAL_DATE_TIME ( #246, #80 ) ;
#20 = EDGE_LOOP ( 'NONE', ( #6, #317, #46, #240 ) ) ;
#21 = DATE_AND_TIME ( #173, #244 ) ;
#22 = DIRECTION ( 'NONE',  ( 0.000000000000000000, 0.000000000000000000, 1.000000000000000000 ) ) ;
#23 = AXIS2_PLACEMENT_3D ( 'NONE', #39, #12, #144 ) ;
#24 = CARTESIAN_POINT ( 'NONE',  ( -1.614212418857619014, 0.000000000000000000, 0.000000000000000000 ) ) ;
#25 = EDGE_CURVE ( 'NONE', #195, #119, #65, .T. ) ;
#26 = CARTESIAN_POINT ( 'NONE',  ( -1.614212418857619014, 1.555301434917138433E-15, -12.69999999999999929 ) ) ;
#27 = AXIS2_PLACEMENT_3D ( 'NONE', #321, #235, #88 ) ;
#28 = LINE ( 'NONE', #182, #103 ) ;
#29 = EDGE_CURVE ( 'NONE', #237, #193, #127, .T. ) ;
#30 = CARTESIAN_POINT ( 'NONE',  ( -3.000000000000000000, 6.123233995736766282E-16, -5.000000000000000000 ) ) ;
#31 = DIRECTION ( 'NONE',  ( 1.000000000000000000, 0.000000000000000000, 0.000000000000000000 ) ) ;
#32 = APPLICATION_PROTOCOL_DEFINITION ( 'international standard', 'config_control_design', 1994, #138 ) ;
#33 = AXIS2_PLACEMENT_3D ( 'NONE', #102, #334, #56 ) ;
#34 = UNCERTAINTY_MEASURE_WITH_UNIT (LENGTH_MEASURE( 1.000000000000000082E-05 ), #95, 'distance_accuracy_value', 'NONE');
#35 = ADVANCED_FACE ( 'NONE', ( #304 ), #299, .F. ) ;
#36 = ORIENTED_EDGE ( 'NONE', *, *, #29, .F. ) ;
#37 = ORIENTED_EDGE ( 'NONE', *, *, #94, .T. ) ;
#38 = ADVANCED_FACE ( 'NONE', ( #152 ), #176, .F. ) ;
#39 = CARTESIAN_POINT ( 'NONE',  ( 0.000000000000000000, 0.000000000000000000, 0.000000000000000000 ) ) ;
#40 =( GEOMETRIC_REPRESENTATION_CONTEXT ( 3 ) GLOBAL_UNCERTAINTY_ASSIGNED_CONTEXT ( ( #34 ) ) GLOBAL_UNIT_ASSIGNED_CONTEXT ( ( #95, #70, #141 ) ) REPRESENTATION_CONTEXT ( 'NONE', 'WORKASPACE' ) );
#41 = ORIENTED_EDGE ( 'NONE', *, *, #219, .T. ) ;
#42 = CARTESIAN_POINT ( 'NONE',  ( -1.250000000000000222, 0.000000000000000000, 5.000000000000000888 ) ) ;
#43 = ORIENTED_EDGE ( 'NONE', *, *, #29, .T. ) ;
#44 = PERSON_AND_ORGANIZATION ( #202, #54 ) ;
#45 = PRODUCT ( 'Q-OZHWP-R2-10-795-M', 'Q-OZHWP-R2-10-795-M', '', ( #77 ) ) ;
#46 = ORIENTED_EDGE ( 'NONE', *, *, #57, .T. ) ;
#47 = PERSON_AND_ORGANIZATION ( #202, #54 ) ;
#48 = FACE_OUTER_BOUND ( 'NONE', #20, .T. ) ;
#49 = CIRCLE ( 'NONE', #274, 5.000000000000000888 ) ;
#50 = COORDINATED_UNIVERSAL_TIME_OFFSET ( 8, 0, .AHEAD. ) ;
#51 = DIRECTION ( 'NONE',  ( -0.000000000000000000, 0.000000000000000000, 1.000000000000000000 ) ) ;
#52 = DIRECTION ( 'NONE',  ( 0.000000000000000000, 0.000000000000000000, 1.000000000000000000 ) ) ;
#53 = CARTESIAN_POINT ( 'NONE',  ( -3.000000000000000000, 0.000000000000000000, 0.000000000000000000 ) ) ;
#54 = ORGANIZATION ( 'UNSPECIFIED', 'UNSPECIFIED', '' ) ;
#55 = DIRECTION ( 'NONE',  ( 0.000000000000000000, 0.000000000000000000, 1.000000000000000000 ) ) ;
#56 = DIRECTION ( 'NONE',  ( -0.000000000000000000, 0.000000000000000000, 1.000000000000000000 ) ) ;
#57 = EDGE_CURVE ( 'NONE', #234, #15, #60, .T. ) ;
#58 = CARTESIAN_POINT ( 'NONE',  ( 3.000000000000000000, 1.555301434917138433E-15, -12.69999999999999929 ) ) ;
#59 = DIRECTION ( 'NONE',  ( 0.000000000000000000, 0.000000000000000000, -1.000000000000000000 ) ) ;
#60 = CIRCLE ( 'NONE', #9, 5.000000000000000000 ) ;
#61 = ORIENTED_EDGE ( 'NONE', *, *, #248, .F. ) ;
#62 = FACE_OUTER_BOUND ( 'NONE', #8, .T. ) ;
#63 = ORIENTED_EDGE ( 'NONE', *, *, #25, .T. ) ;
#64 = CARTESIAN_POINT ( 'NONE',  ( 3.000000000000000000, 0.000000000000000000, 5.000000000000001776 ) ) ;
#65 = CIRCLE ( 'NONE', #266, 12.69999999999999929 ) ;
#66 = CALENDAR_DATE ( 2020, 22, 12 ) ;
#67 = CYLINDRICAL_SURFACE ( 'NONE', #136, 5.000000000000000888 ) ;
#68 = ORIENTED_EDGE ( 'NONE', *, *, #3, .T. ) ;
#69 = PERSON_AND_ORGANIZATION_ROLE ( 'creator' ) ;
#70 =( NAMED_UNIT ( * ) PLANE_ANGLE_UNIT ( ) SI_UNIT ( $, .RADIAN. ) );
#71 = ORIENTED_EDGE ( 'NONE', *, *, #109, .F. ) ;
#72 = CALENDAR_DATE ( 2020, 22, 12 ) ;
#73 = PERSON_AND_ORGANIZATION_ROLE ( 'design_owner' ) ;
#74 = DIRECTION ( 'NONE',  ( -1.000000000000000000, 0.000000000000000000, -0.000000000000000000 ) ) ;
#75 = SHAPE_DEFINITION_REPRESENTATION ( #326, #203 ) ;
#76 = LOCAL_TIME ( 17, 12, 28.00000000000000000, #164 ) ;
#77 = MECHANICAL_CONTEXT ( 'NONE', #138, 'mechanical' ) ;
#78 = CARTESIAN_POINT ( 'NONE',  ( 1.250000000000000444, 0.000000000000000000, 0.000000000000000000 ) ) ;
#79 = CARTESIAN_POINT ( 'NONE',  ( 3.000000000000000000, 0.000000000000000000, 0.000000000000000000 ) ) ;
#80 = APPROVAL ( #271, 'UNSPECIFIED' ) ;
#81 = DIRECTION ( 'NONE',  ( 1.000000000000000000, 0.000000000000000000, 0.000000000000000000 ) ) ;
#82 = CIRCLE ( 'NONE', #97, 12.69999999999999929 ) ;
#83 = LOCAL_TIME ( 17, 12, 28.00000000000000000, #50 ) ;
#84 = PLANE ( 'NONE',  #121 ) ;
#85 = ADVANCED_FACE ( 'NONE', ( #48 ), #245, .F. ) ;
#86 = EDGE_LOOP ( 'NONE', ( #200, #125 ) ) ;
#87 = APPROVAL ( #150, 'UNSPECIFIED' ) ;
#88 = DIRECTION ( 'NONE',  ( 0.000000000000000000, 0.000000000000000000, 1.000000000000000000 ) ) ;
#89 = AXIS2_PLACEMENT_3D ( 'NONE', #275, #74, #51 ) ;
#90 = ORIENTED_EDGE ( 'NONE', *, *, #109, .T. ) ;
#91 = FACE_OUTER_BOUND ( 'NONE', #145, .T. ) ;
#92 = ORIENTED_EDGE ( 'NONE', *, *, #229, .T. ) ;
#93 = DIRECTION ( 'NONE',  ( 0.000000000000000000, 0.000000000000000000, 1.000000000000000000 ) ) ;
#94 = EDGE_CURVE ( 'NONE', #328, #115, #181, .T. ) ;
#95 =( LENGTH_UNIT ( ) NAMED_UNIT ( * ) SI_UNIT ( .MILLI., .METRE. ) );
#96 = ORIENTED_EDGE ( 'NONE', *, *, #123, .T. ) ;
#97 = AXIS2_PLACEMENT_3D ( 'NONE', #205, #310, #55 ) ;
#98 = CC_DESIGN_APPROVAL ( #80, ( #292 ) ) ;
#99 = APPROVAL_ROLE ( '' ) ;
#100 = AXIS2_PLACEMENT_3D ( 'NONE', #185, #283, #59 ) ;
#101 = DIRECTION ( 'NONE',  ( 0.000000000000000000, 0.000000000000000000, 1.000000000000000000 ) ) ;
#102 = CARTESIAN_POINT ( 'NONE',  ( 1.250000000000000222, 5.000000000000000000, 0.000000000000000000 ) ) ;
#103 = VECTOR ( 'NONE', #180, 1000.000000000000000 ) ;
#104 = EDGE_CURVE ( 'NONE', #193, #237, #220, .T. ) ;
#105 = CARTESIAN_POINT ( 'NONE',  ( -1.614212418857619014, 0.000000000000000000, 12.69999999999999929 ) ) ;
#106 = CARTESIAN_POINT ( 'NONE',  ( 3.000000000000000000, 6.123233995736768255E-16, -5.000000000000001776 ) ) ;
#107 = CC_DESIGN_PERSON_AND_ORGANIZATION_ASSIGNMENT ( #44, #170, ( #292 ) ) ;
#108 = CARTESIAN_POINT ( 'NONE',  ( -1.614212418857619014, 0.000000000000000000, 0.000000000000000000 ) ) ;
#109 = EDGE_CURVE ( 'NONE', #195, #263, #132, .T. ) ;
#110 = VERTEX_POINT ( 'NONE', #313 ) ;
#111 = LINE ( 'NONE', #318, #157 ) ;
#112 = ORIENTED_EDGE ( 'NONE', *, *, #219, .F. ) ;
#113 = CARTESIAN_POINT ( 'NONE',  ( -3.000000000000000000, 0.000000000000000000, 12.69999999999999929 ) ) ;
#114 = EDGE_CURVE ( 'NONE', #110, #263, #82, .T. ) ;
#115 = VERTEX_POINT ( 'NONE', #30 ) ;
#116 = CARTESIAN_POINT ( 'NONE',  ( -3.000000000000000000, 0.000000000000000000, 0.000000000000000000 ) ) ;
#117 = EDGE_LOOP ( 'NONE', ( #63, #92, #61, #71 ) ) ;
#118 = CARTESIAN_POINT ( 'NONE',  ( -3.000000000000000000, 0.000000000000000000, 5.000000000000000000 ) ) ;
#119 = VERTEX_POINT ( 'NONE', #58 ) ;
#120 = AXIS2_PLACEMENT_3D ( 'NONE', #197, #128, #101 ) ;
#121 = AXIS2_PLACEMENT_3D ( 'NONE', #309, #81, #232 ) ;
#122 = FACE_BOUND ( 'NONE', #167, .T. ) ;
#123 = EDGE_CURVE ( 'NONE', #257, #319, #49, .T. ) ;
#124 = PERSON_AND_ORGANIZATION_ROLE ( 'classification_officer' ) ;
#125 = ORIENTED_EDGE ( 'NONE', *, *, #57, .F. ) ;
#126 = DIRECTION ( 'NONE',  ( 0.000000000000000000, 0.000000000000000000, 1.000000000000000000 ) ) ;
#127 = CIRCLE ( 'NONE', #171, 5.000000000000001776 ) ;
#128 = DIRECTION ( 'NONE',  ( -1.000000000000000000, -0.000000000000000000, -0.000000000000000000 ) ) ;
#129 = DIRECTION ( 'NONE',  ( -1.000000000000000000, -0.000000000000000000, -0.000000000000000000 ) ) ;
#130 = AXIS2_PLACEMENT_3D ( 'NONE', #204, #306, #179 ) ;
#131 = ADVANCED_FACE ( 'NONE', ( #207 ), #134, .F. ) ;
#132 = LINE ( 'NONE', #105, #303 ) ;
#133 = DIRECTION ( 'NONE',  ( -1.000000000000000000, -0.000000000000000000, -0.000000000000000000 ) ) ;
#134 = CYLINDRICAL_SURFACE ( 'NONE', #305, 5.000000000000000888 ) ;
#135 = EDGE_CURVE ( 'NONE', #257, #115, #253, .T. ) ;
#136 = AXIS2_PLACEMENT_3D ( 'NONE', #293, #213, #187 ) ;
#137 = DIRECTION ( 'NONE',  ( 0.000000000000000000, 0.000000000000000000, 1.000000000000000000 ) ) ;
#138 = APPLICATION_CONTEXT ( 'configuration controlled 3d designs of mechanical parts and assemblies' ) ;
#139 = DIRECTION ( 'NONE',  ( -1.000000000000000000, -0.000000000000000000, -0.000000000000000000 ) ) ;
#140 = ORIENTED_EDGE ( 'NONE', *, *, #312, .T. ) ;
#141 =( NAMED_UNIT ( * ) SI_UNIT ( $, .STERADIAN. ) SOLID_ANGLE_UNIT ( ) );
#142 = ORIENTED_EDGE ( 'NONE', *, *, #229, .F. ) ;
#143 = CC_DESIGN_PERSON_AND_ORGANIZATION_ASSIGNMENT ( #295, #73, ( #45 ) ) ;
#144 = DIRECTION ( 'NONE',  ( 1.000000000000000000, 0.000000000000000000, 0.000000000000000000 ) ) ;
#145 = EDGE_LOOP ( 'NONE', ( #142, #214, #90, #210 ) ) ;
#146 = ORIENTED_EDGE ( 'NONE', *, *, #248, .T. ) ;
#147 = APPROVAL_ROLE ( '' ) ;
#148 = PERSON_AND_ORGANIZATION ( #202, #54 ) ;
#149 = CARTESIAN_POINT ( 'NONE',  ( -1.250000000000000222, 5.000000000000000000, 0.000000000000000000 ) ) ;
#150 = APPROVAL_STATUS ( 'not_yet_approved' ) ;
#151 = CARTESIAN_POINT ( 'NONE',  ( 3.000000000000000000, 0.000000000000000000, 0.000000000000000000 ) ) ;
#152 = FACE_OUTER_BOUND ( 'NONE', #322, .T. ) ;
#153 = DIRECTION ( 'NONE',  ( -1.000000000000000000, -0.000000000000000000, -0.000000000000000000 ) ) ;
#154 = CC_DESIGN_APPROVAL ( #333, ( #183 ) ) ;
#155 = PLANE ( 'NONE',  #33 ) ;
#156 = CARTESIAN_POINT ( 'NONE',  ( -1.614212418857619014, 0.000000000000000000, 0.000000000000000000 ) ) ;
#157 = VECTOR ( 'NONE', #284, 1000.000000000000000 ) ;
#158 = VECTOR ( 'NONE', #133, 1000.000000000000000 ) ;
#159 = DIRECTION ( 'NONE',  ( -1.000000000000000000, -0.000000000000000000, -0.000000000000000000 ) ) ;
#160 = AXIS2_PLACEMENT_3D ( 'NONE', #116, #139, #315 ) ;
#161 = EDGE_CURVE ( 'NONE', #193, #234, #28, .T. ) ;
#162 = ORIENTED_EDGE ( 'NONE', *, *, #135, .T. ) ;
#163 = ADVANCED_FACE ( 'NONE', ( #277 ), #155, .F. ) ;
#164 = COORDINATED_UNIVERSAL_TIME_OFFSET ( 8, 0, .AHEAD. ) ;
#165 = VECTOR ( 'NONE', #129, 1000.000000000000000 ) ;
#166 = DESIGN_CONTEXT ( 'detailed design', #332, 'design' ) ;
#167 = EDGE_LOOP ( 'NONE', ( #43, #13 ) ) ;
#168 = PERSON_AND_ORGANIZATION ( #202, #54 ) ;
#169 = ORIENTED_EDGE ( 'NONE', *, *, #290, .T. ) ;
#170 = PERSON_AND_ORGANIZATION_ROLE ( 'design_supplier' ) ;
#171 = AXIS2_PLACEMENT_3D ( 'NONE', #79, #270, #126 ) ;
#172 = APPROVAL_ROLE ( '' ) ;
#173 = CALENDAR_DATE ( 2020, 22, 12 ) ;
#174 = DIRECTION ( 'NONE',  ( 0.000000000000000000, 0.000000000000000000, 1.000000000000000000 ) ) ;
#175 = CC_DESIGN_PERSON_AND_ORGANIZATION_ASSIGNMENT ( #298, #264, ( #292 ) ) ;
#176 = CYLINDRICAL_SURFACE ( 'NONE', #177, 5.000000000000000888 ) ;
#177 = AXIS2_PLACEMENT_3D ( 'NONE', #24, #249, #196 ) ;
#178 = FACE_OUTER_BOUND ( 'NONE', #320, .T. ) ;
#179 = DIRECTION ( 'NONE',  ( 0.000000000000000000, 0.000000000000000000, 1.000000000000000000 ) ) ;
#180 = DIRECTION ( 'NONE',  ( -1.000000000000000000, -0.000000000000000000, -0.000000000000000000 ) ) ;
#181 = CIRCLE ( 'NONE', #192, 5.000000000000000000 ) ;
#182 = CARTESIAN_POINT ( 'NONE',  ( -1.614212418857619014, 6.123233995736767268E-16, -5.000000000000000888 ) ) ;
#183 = SECURITY_CLASSIFICATION ( '', '', #265 ) ;
#184 = FACE_OUTER_BOUND ( 'NONE', #117, .T. ) ;
#185 = CARTESIAN_POINT ( 'NONE',  ( -1.250000000000000222, 0.000000000000000000, 0.000000000000000000 ) ) ;
#186 = CLOSED_SHELL ( 'NONE', ( #212, #282, #85, #163, #131, #38, #198, #260, #7, #35 ) ) ;
#187 = DIRECTION ( 'NONE',  ( 0.000000000000000000, 0.000000000000000000, 1.000000000000000000 ) ) ;
#188 = ORIENTED_EDGE ( 'NONE', *, *, #25, .F. ) ;
#189 = CC_DESIGN_SECURITY_CLASSIFICATION ( #183, ( #292 ) ) ;
#190 = CARTESIAN_POINT ( 'NONE',  ( -1.614212418857619014, 0.000000000000000000, 5.000000000000000888 ) ) ;
#191 = CARTESIAN_POINT ( 'NONE',  ( -3.000000000000000000, 0.000000000000000000, 0.000000000000000000 ) ) ;
#192 = AXIS2_PLACEMENT_3D ( 'NONE', #53, #247, #22 ) ;
#193 = VERTEX_POINT ( 'NONE', #106 ) ;
#194 = APPLICATION_PROTOCOL_DEFINITION ( 'international standard', 'config_control_design', 1994, #332 ) ;
#195 = VERTEX_POINT ( 'NONE', #209 ) ;
#196 = DIRECTION ( 'NONE',  ( 0.000000000000000000, 0.000000000000000000, 1.000000000000000000 ) ) ;
#197 = CARTESIAN_POINT ( 'NONE',  ( 3.000000000000000000, 0.000000000000000000, 0.000000000000000000 ) ) ;
#198 = ADVANCED_FACE ( 'NONE', ( #307, #279 ), #84, .F. ) ;
#199 = DATE_AND_TIME ( #72, #330 ) ;
#200 = ORIENTED_EDGE ( 'NONE', *, *, #290, .F. ) ;
#201 = DIRECTION ( 'NONE',  ( 0.000000000000000000, 0.000000000000000000, -1.000000000000000000 ) ) ;
#202 = PERSON ( 'UNSPECIFIED', 'UNSPECIFIED', 'UNSPECIFIED', ('UNSPECIFIED'), ('UNSPECIFIED'), ('UNSPECIFIED') ) ;
#203 = ADVANCED_BREP_SHAPE_REPRESENTATION ( 'Q-OZHWP-R2-10-795-M', ( #254, #23 ), #40 ) ;
#204 = CARTESIAN_POINT ( 'NONE',  ( 3.000000000000000000, 0.000000000000000000, 0.000000000000000000 ) ) ;
#205 = CARTESIAN_POINT ( 'NONE',  ( -3.000000000000000000, 0.000000000000000000, 0.000000000000000000 ) ) ;
#206 = DIRECTION ( 'NONE',  ( -1.000000000000000000, -0.000000000000000000, -0.000000000000000000 ) ) ;
#207 = FACE_OUTER_BOUND ( 'NONE', #287, .T. ) ;
#208 = APPROVAL_PERSON_ORGANIZATION ( #47, #333, #147 ) ;
#209 = CARTESIAN_POINT ( 'NONE',  ( 3.000000000000000000, 0.000000000000000000, 12.69999999999999929 ) ) ;
#210 = ORIENTED_EDGE ( 'NONE', *, *, #114, .F. ) ;
#211 = CARTESIAN_POINT ( 'NONE',  ( 1.250000000000000444, 6.123233995736766282E-16, -5.000000000000000000 ) ) ;
#212 = ADVANCED_FACE ( 'NONE', ( #184 ), #1, .T. ) ;
#213 = DIRECTION ( 'NONE',  ( -1.000000000000000000, -0.000000000000000000, -0.000000000000000000 ) ) ;
#214 = ORIENTED_EDGE ( 'NONE', *, *, #225, .T. ) ;
#215 = DIRECTION ( 'NONE',  ( -1.000000000000000000, -0.000000000000000000, -0.000000000000000000 ) ) ;
#216 = CALENDAR_DATE ( 2020, 22, 12 ) ;
#217 = CARTESIAN_POINT ( 'NONE',  ( -1.250000000000000222, 6.123233995736767268E-16, -5.000000000000000888 ) ) ;
#218 = ORIENTED_EDGE ( 'NONE', *, *, #114, .T. ) ;
#219 = EDGE_CURVE ( 'NONE', #319, #257, #238, .T. ) ;
#220 = CIRCLE ( 'NONE', #120, 5.000000000000001776 ) ;
#221 = DATE_TIME_ROLE ( 'creation_date' ) ;
#222 = AXIS2_PLACEMENT_3D ( 'NONE', #108, #281, #250 ) ;
#223 = CARTESIAN_POINT ( 'NONE',  ( 1.250000000000000444, 0.000000000000000000, 5.000000000000000000 ) ) ;
#224 = APPROVAL_DATE_TIME ( #327, #333 ) ;
#225 = EDGE_CURVE ( 'NONE', #119, #195, #5, .T. ) ;
#226 = DIRECTION ( 'NONE',  ( -1.000000000000000000, -0.000000000000000000, -0.000000000000000000 ) ) ;
#227 = CALENDAR_DATE ( 2020, 22, 12 ) ;
#228 = ORIENTED_EDGE ( 'NONE', *, *, #3, .F. ) ;
#229 = EDGE_CURVE ( 'NONE', #119, #110, #276, .T. ) ;
#230 = CC_DESIGN_PERSON_AND_ORGANIZATION_ASSIGNMENT ( #148, #124, ( #183 ) ) ;
#231 = CARTESIAN_POINT ( 'NONE',  ( -1.614212418857619014, 6.123233995736767268E-16, -5.000000000000000888 ) ) ;
#232 = DIRECTION ( 'NONE',  ( 0.000000000000000000, 0.000000000000000000, -1.000000000000000000 ) ) ;
#233 = APPROVAL_PERSON_ORGANIZATION ( #168, #87, #99 ) ;
#234 = VERTEX_POINT ( 'NONE', #211 ) ;
#235 = DIRECTION ( 'NONE',  ( -1.000000000000000000, -0.000000000000000000, -0.000000000000000000 ) ) ;
#236 = ORIENTED_EDGE ( 'NONE', *, *, #161, .F. ) ;
#237 = VERTEX_POINT ( 'NONE', #64 ) ;
#238 = CIRCLE ( 'NONE', #100, 5.000000000000000888 ) ;
#239 = ORIENTED_EDGE ( 'NONE', *, *, #94, .F. ) ;
#240 = ORIENTED_EDGE ( 'NONE', *, *, #329, .F. ) ;
#241 = COORDINATED_UNIVERSAL_TIME_OFFSET ( 8, 0, .AHEAD. ) ;
#242 = EDGE_LOOP ( 'NONE', ( #112, #11 ) ) ;
#243 = PERSON_AND_ORGANIZATION ( #202, #54 ) ;
#244 = LOCAL_TIME ( 17, 12, 28.00000000000000000, #291 ) ;
#245 = CYLINDRICAL_SURFACE ( 'NONE', #2, 5.000000000000000888 ) ;
#246 = DATE_AND_TIME ( #66, #83 ) ;
#247 = DIRECTION ( 'NONE',  ( -1.000000000000000000, -0.000000000000000000, -0.000000000000000000 ) ) ;
#248 = EDGE_CURVE ( 'NONE', #263, #110, #269, .T. ) ;
#249 = DIRECTION ( 'NONE',  ( -1.000000000000000000, -0.000000000000000000, -0.000000000000000000 ) ) ;
#250 = DIRECTION ( 'NONE',  ( 0.000000000000000000, 0.000000000000000000, 1.000000000000000000 ) ) ;
#251 = AXIS2_PLACEMENT_3D ( 'NONE', #149, #331, #201 ) ;
#252 = CC_DESIGN_DATE_AND_TIME_ASSIGNMENT ( #16, #262, ( #183 ) ) ;
#253 = LINE ( 'NONE', #231, #158 ) ;
#254 = MANIFOLD_SOLID_BREP ( 'Ðý×', #186 ) ;
#255 = CARTESIAN_POINT ( 'NONE',  ( -1.250000000000000222, 0.000000000000000000, 0.000000000000000000 ) ) ;
#256 = LOCAL_TIME ( 17, 12, 28.00000000000000000, #241 ) ;
#257 = VERTEX_POINT ( 'NONE', #217 ) ;
#258 = DIRECTION ( 'NONE',  ( -1.000000000000000000, -0.000000000000000000, -0.000000000000000000 ) ) ;
#259 = AXIS2_PLACEMENT_3D ( 'NONE', #191, #215, #93 ) ;
#260 = ADVANCED_FACE ( 'NONE', ( #91 ), #324, .T. ) ;
#261 = DIRECTION ( 'NONE',  ( -1.000000000000000000, -0.000000000000000000, -0.000000000000000000 ) ) ;
#262 = DATE_TIME_ROLE ( 'classification_date' ) ;
#263 = VERTEX_POINT ( 'NONE', #113 ) ;
#264 = PERSON_AND_ORGANIZATION_ROLE ( 'creator' ) ;
#265 = SECURITY_CLASSIFICATION_LEVEL ( 'unclassified' ) ;
#266 = AXIS2_PLACEMENT_3D ( 'NONE', #151, #153, #174 ) ;
#267 = CC_DESIGN_PERSON_AND_ORGANIZATION_ASSIGNMENT ( #289, #69, ( #308 ) ) ;
#268 = COORDINATED_UNIVERSAL_TIME_OFFSET ( 8, 0, .AHEAD. ) ;
#269 = CIRCLE ( 'NONE', #160, 12.69999999999999929 ) ;
#270 = DIRECTION ( 'NONE',  ( -1.000000000000000000, -0.000000000000000000, -0.000000000000000000 ) ) ;
#271 = APPROVAL_STATUS ( 'not_yet_approved' ) ;
#272 = CARTESIAN_POINT ( 'NONE',  ( -1.614212418857619014, 0.000000000000000000, 0.000000000000000000 ) ) ;
#273 = DIRECTION ( 'NONE',  ( -1.000000000000000000, -0.000000000000000000, -0.000000000000000000 ) ) ;
#274 = AXIS2_PLACEMENT_3D ( 'NONE', #255, #31, #335 ) ;
#275 = CARTESIAN_POINT ( 'NONE',  ( 3.000000000000000000, 12.69999999999999929, 0.000000000000000000 ) ) ;
#276 = LINE ( 'NONE', #26, #165 ) ;
#277 = FACE_OUTER_BOUND ( 'NONE', #86, .T. ) ;
#278 = PRODUCT_RELATED_PRODUCT_CATEGORY ( 'detail', '', ( #45 ) ) ;
#279 = FACE_OUTER_BOUND ( 'NONE', #294, .T. ) ;
#280 = AXIS2_PLACEMENT_3D ( 'NONE', #10, #258, #137 ) ;
#281 = DIRECTION ( 'NONE',  ( -1.000000000000000000, -0.000000000000000000, -0.000000000000000000 ) ) ;
#282 = ADVANCED_FACE ( 'NONE', ( #62 ), #67, .F. ) ;
#283 = DIRECTION ( 'NONE',  ( 1.000000000000000000, 0.000000000000000000, 0.000000000000000000 ) ) ;
#284 = DIRECTION ( 'NONE',  ( -1.000000000000000000, -0.000000000000000000, -0.000000000000000000 ) ) ;
#285 = ORIENTED_EDGE ( 'NONE', *, *, #329, .T. ) ;
#286 = CIRCLE ( 'NONE', #280, 5.000000000000000000 ) ;
#287 = EDGE_LOOP ( 'NONE', ( #236, #36, #285, #169 ) ) ;
#288 = LINE ( 'NONE', #190, #302 ) ;
#289 = PERSON_AND_ORGANIZATION ( #202, #54 ) ;
#290 = EDGE_CURVE ( 'NONE', #15, #234, #286, .T. ) ;
#291 = COORDINATED_UNIVERSAL_TIME_OFFSET ( 8, 0, .AHEAD. ) ;
#292 = PRODUCT_DEFINITION_FORMATION_WITH_SPECIFIED_SOURCE ( 'ANY', '', #45, .NOT_KNOWN. ) ;
#293 = CARTESIAN_POINT ( 'NONE',  ( -1.614212418857619014, 0.000000000000000000, 0.000000000000000000 ) ) ;
#294 = EDGE_LOOP ( 'NONE', ( #146, #218 ) ) ;
#295 = PERSON_AND_ORGANIZATION ( #202, #54 ) ;
#296 = CC_DESIGN_DATE_AND_TIME_ASSIGNMENT ( #199, #221, ( #308 ) ) ;
#297 = DIRECTION ( 'NONE',  ( 0.000000000000000000, 0.000000000000000000, 1.000000000000000000 ) ) ;
#298 = PERSON_AND_ORGANIZATION ( #202, #54 ) ;
#299 = PLANE ( 'NONE',  #251 ) ;
#300 = APPROVAL_STATUS ( 'not_yet_approved' ) ;
#301 = ORIENTED_EDGE ( 'NONE', *, *, #135, .F. ) ;
#302 = VECTOR ( 'NONE', #261, 1000.000000000000000 ) ;
#303 = VECTOR ( 'NONE', #159, 1000.000000000000000 ) ;
#304 = FACE_OUTER_BOUND ( 'NONE', #242, .T. ) ;
#305 = AXIS2_PLACEMENT_3D ( 'NONE', #156, #206, #4 ) ;
#306 = DIRECTION ( 'NONE',  ( -1.000000000000000000, -0.000000000000000000, -0.000000000000000000 ) ) ;
#307 = FACE_BOUND ( 'NONE', #314, .T. ) ;
#308 = PRODUCT_DEFINITION ( 'UNKNOWN', '', #292, #166 ) ;
#309 = CARTESIAN_POINT ( 'NONE',  ( -3.000000000000000000, 5.000000000000000000, 0.000000000000000000 ) ) ;
#310 = DIRECTION ( 'NONE',  ( -1.000000000000000000, -0.000000000000000000, -0.000000000000000000 ) ) ;
#311 = APPROVAL_PERSON_ORGANIZATION ( #243, #80, #172 ) ;
#312 = EDGE_CURVE ( 'NONE', #319, #328, #111, .T. ) ;
#313 = CARTESIAN_POINT ( 'NONE',  ( -3.000000000000000000, 1.555301434917138433E-15, -12.69999999999999929 ) ) ;
#314 = EDGE_LOOP ( 'NONE', ( #239, #228 ) ) ;
#315 = DIRECTION ( 'NONE',  ( 0.000000000000000000, 0.000000000000000000, 1.000000000000000000 ) ) ;
#316 = ORIENTED_EDGE ( 'NONE', *, *, #225, .F. ) ;
#317 = ORIENTED_EDGE ( 'NONE', *, *, #161, .T. ) ;
#318 = CARTESIAN_POINT ( 'NONE',  ( -1.614212418857619014, 0.000000000000000000, 5.000000000000000888 ) ) ;
#319 = VERTEX_POINT ( 'NONE', #42 ) ;
#320 = EDGE_LOOP ( 'NONE', ( #188, #316 ) ) ;
#321 = CARTESIAN_POINT ( 'NONE',  ( -1.614212418857619014, 0.000000000000000000, 0.000000000000000000 ) ) ;
#322 = EDGE_LOOP ( 'NONE', ( #301, #96, #140, #37 ) ) ;
#323 = CIRCLE ( 'NONE', #259, 5.000000000000000000 ) ;
#324 = CYLINDRICAL_SURFACE ( 'NONE', #27, 12.69999999999999929 ) ;
#325 = ORIENTED_EDGE ( 'NONE', *, *, #312, .F. ) ;
#326 = PRODUCT_DEFINITION_SHAPE ( 'NONE', 'NONE',  #308 ) ;
#327 = DATE_AND_TIME ( #216, #256 ) ;
#328 = VERTEX_POINT ( 'NONE', #118 ) ;
#329 = EDGE_CURVE ( 'NONE', #237, #15, #288, .T. ) ;
#330 = LOCAL_TIME ( 17, 12, 28.00000000000000000, #268 ) ;
#331 = DIRECTION ( 'NONE',  ( 1.000000000000000000, 0.000000000000000000, 0.000000000000000000 ) ) ;
#332 = APPLICATION_CONTEXT ( 'configuration controlled 3d designs of mechanical parts and assemblies' ) ;
#333 = APPROVAL ( #300, 'UNSPECIFIED' ) ;
#334 = DIRECTION ( 'NONE',  ( -1.000000000000000000, 0.000000000000000000, -0.000000000000000000 ) ) ;
#335 = DIRECTION ( 'NONE',  ( 0.000000000000000000, 0.000000000000000000, -1.000000000000000000 ) ) ;
ENDSEC;
END-ISO-10303-21;
